ISO-10303-21;
HEADER;
FILE_DESCRIPTION (( 'STEP AP203' ),
    '1' );
FILE_NAME ('QM-AAHWP-10-900-2100-M.STEP',
    '2021-01-05T02:32:41',
    ( '' ),
    ( '' ),
    'SwSTEP 2.0',
    'SolidWorks 2020',
    '' );
FILE_SCHEMA (( 'CONFIG_CONTROL_DESIGN' ));
ENDSEC;

DATA;
#1 = APPROVAL_PERSON_ORGANIZATION ( #136, #313, #148 ) ;
#2 = COORDINATED_UNIVERSAL_TIME_OFFSET ( 8, 0, .AHEAD. ) ;
#3 = VERTEX_POINT ( 'NONE', #181 ) ;
#4 = PERSON_AND_ORGANIZATION_ROLE ( 'design_owner' ) ;
#5 = VERTEX_POINT ( 'NONE', #213 ) ;
#6 = CC_DESIGN_DATE_AND_TIME_ASSIGNMENT ( #29, #77, ( #158 ) ) ;
#7 = DIRECTION ( 'NONE',  ( -1.000000000000000000, -0.000000000000000000, -0.000000000000000000 ) ) ;
#8 = AXIS2_PLACEMENT_3D ( 'NONE', #62, #162, #267 ) ;
#9 = DIRECTION ( 'NONE',  ( 0.000000000000000000, 0.000000000000000000, 1.000000000000000000 ) ) ;
#10 = ORIENTED_EDGE ( 'NONE', *, *, #212, .F. ) ;
#11 = CIRCLE ( 'NONE', #49, 5.000000000000001776 ) ;
#12 = FACE_OUTER_BOUND ( 'NONE', #157, .T. ) ;
#13 = ORIENTED_EDGE ( 'NONE', *, *, #294, .F. ) ;
#14 = PERSON_AND_ORGANIZATION_ROLE ( 'creator' ) ;
#15 = DIRECTION ( 'NONE',  ( -1.000000000000000000, -0.000000000000000000, -0.000000000000000000 ) ) ;
#16 = FACE_OUTER_BOUND ( 'NONE', #187, .T. ) ;
#17 = LOCAL_TIME ( 10, 32, 41.00000000000000000, #2 ) ;
#18 = CARTESIAN_POINT ( 'NONE',  ( -0.5000000000000002220, 6.123233995736767268E-16, -5.000000000000000888 ) ) ;
#19 = EDGE_CURVE ( 'NONE', #287, #107, #317, .T. ) ;
#20 = EDGE_CURVE ( 'NONE', #53, #5, #185, .T. ) ;
#21 = CARTESIAN_POINT ( 'NONE',  ( -0.5000000000000002220, 0.000000000000000000, 0.000000000000000000 ) ) ;
#22 = APPROVAL ( #194, 'UNSPECIFIED' ) ;
#23 = DIRECTION ( 'NONE',  ( -1.000000000000000000, -0.000000000000000000, -0.000000000000000000 ) ) ;
#24 = DESIGN_CONTEXT ( 'detailed design', #214, 'design' ) ;
#25 = AXIS2_PLACEMENT_3D ( 'NONE', #116, #245, #223 ) ;
#26 = FACE_OUTER_BOUND ( 'NONE', #149, .T. ) ;
#27 = DIRECTION ( 'NONE',  ( -1.000000000000000000, -0.000000000000000000, -0.000000000000000000 ) ) ;
#28 = VECTOR ( 'NONE', #153, 1000.000000000000000 ) ;
#29 = DATE_AND_TIME ( #150, #208 ) ;
#30 = PERSON_AND_ORGANIZATION ( #100, #199 ) ;
#31 = ORIENTED_EDGE ( 'NONE', *, *, #66, .T. ) ;
#32 = CARTESIAN_POINT ( 'NONE',  ( 3.000000000000000000, 0.000000000000000000, 0.000000000000000000 ) ) ;
#33 = EDGE_LOOP ( 'NONE', ( #156, #289, #105, #84 ) ) ;
#34 = APPROVAL ( #229, 'UNSPECIFIED' ) ;
#35 = DIRECTION ( 'NONE',  ( -1.000000000000000000, -0.000000000000000000, -0.000000000000000000 ) ) ;
#36 = DIRECTION ( 'NONE',  ( -1.000000000000000000, -0.000000000000000000, -0.000000000000000000 ) ) ;
#37 = ORIENTED_EDGE ( 'NONE', *, *, #330, .F. ) ;
#38 = CYLINDRICAL_SURFACE ( 'NONE', #54, 12.69999999999999929 ) ;
#39 = LINE ( 'NONE', #269, #188 ) ;
#40 = PRODUCT_DEFINITION ( 'UNKNOWN', '', #302, #24 ) ;
#41 = DIRECTION ( 'NONE',  ( -1.000000000000000000, -0.000000000000000000, -0.000000000000000000 ) ) ;
#42 = CARTESIAN_POINT ( 'NONE',  ( 3.000000000000000000, 0.000000000000000000, 12.69999999999999929 ) ) ;
#43 = CIRCLE ( 'NONE', #203, 5.000000000000000888 ) ;
#44 = CC_DESIGN_PERSON_AND_ORGANIZATION_ASSIGNMENT ( #30, #14, ( #40 ) ) ;
#45 = CYLINDRICAL_SURFACE ( 'NONE', #123, 5.000000000000000888 ) ;
#46 =( LENGTH_UNIT ( ) NAMED_UNIT ( * ) SI_UNIT ( .MILLI., .METRE. ) );
#47 = DIRECTION ( 'NONE',  ( -1.000000000000000000, -0.000000000000000000, -0.000000000000000000 ) ) ;
#48 = EDGE_CURVE ( 'NONE', #3, #109, #11, .T. ) ;
#49 = AXIS2_PLACEMENT_3D ( 'NONE', #32, #128, #111 ) ;
#50 = APPROVAL_DATE_TIME ( #155, #313 ) ;
#51 = ORIENTED_EDGE ( 'NONE', *, *, #294, .T. ) ;
#52 = EDGE_CURVE ( 'NONE', #5, #57, #145, .T. ) ;
#53 = VERTEX_POINT ( 'NONE', #80 ) ;
#54 = AXIS2_PLACEMENT_3D ( 'NONE', #327, #93, #197 ) ;
#55 = ORIENTED_EDGE ( 'NONE', *, *, #48, .T. ) ;
#56 = DIRECTION ( 'NONE',  ( 1.000000000000000000, 0.000000000000000000, 0.000000000000000000 ) ) ;
#57 = VERTEX_POINT ( 'NONE', #82 ) ;
#58 = EDGE_LOOP ( 'NONE', ( #55, #164 ) ) ;
#59 = ADVANCED_FACE ( 'NONE', ( #282 ), #189, .T. ) ;
#60 = LOCAL_TIME ( 10, 32, 41.00000000000000000, #219 ) ;
#61 = CARTESIAN_POINT ( 'NONE',  ( -0.5000000000000002220, 0.000000000000000000, 5.000000000000000888 ) ) ;
#62 = CARTESIAN_POINT ( 'NONE',  ( 3.000000000000000000, 0.000000000000000000, 0.000000000000000000 ) ) ;
#63 = APPLICATION_PROTOCOL_DEFINITION ( 'international standard', 'config_control_design', 1994, #214 ) ;
#64 = EDGE_CURVE ( 'NONE', #151, #193, #307, .T. ) ;
#65 = FACE_BOUND ( 'NONE', #235, .T. ) ;
#66 = EDGE_CURVE ( 'NONE', #127, #287, #293, .T. ) ;
#67 = DIRECTION ( 'NONE',  ( 0.000000000000000000, 0.000000000000000000, -1.000000000000000000 ) ) ;
#68 = DIRECTION ( 'NONE',  ( 0.000000000000000000, 0.000000000000000000, 1.000000000000000000 ) ) ;
#69 = AXIS2_PLACEMENT_3D ( 'NONE', #176, #119, #227 ) ;
#70 = DIRECTION ( 'NONE',  ( -1.000000000000000000, -0.000000000000000000, -0.000000000000000000 ) ) ;
#71 = DIRECTION ( 'NONE',  ( -1.000000000000000000, -0.000000000000000000, -0.000000000000000000 ) ) ;
#72 = CARTESIAN_POINT ( 'NONE',  ( 3.000000000000000000, 12.69999999999999929, 0.000000000000000000 ) ) ;
#73 =( NAMED_UNIT ( * ) PLANE_ANGLE_UNIT ( ) SI_UNIT ( $, .RADIAN. ) );
#74 = ORIENTED_EDGE ( 'NONE', *, *, #64, .T. ) ;
#75 = SECURITY_CLASSIFICATION_LEVEL ( 'unclassified' ) ;
#76 = ORIENTED_EDGE ( 'NONE', *, *, #94, .F. ) ;
#77 = DATE_TIME_ROLE ( 'classification_date' ) ;
#78 = DIRECTION ( 'NONE',  ( -1.000000000000000000, -0.000000000000000000, -0.000000000000000000 ) ) ;
#79 = APPROVAL_ROLE ( '' ) ;
#80 = CARTESIAN_POINT ( 'NONE',  ( 3.000000000000000000, 1.555301434917138433E-15, -12.69999999999999929 ) ) ;
#81 = CLOSED_SHELL ( 'NONE', ( #160, #311, #319, #103, #146, #297, #225, #59, #266, #88 ) ) ;
#82 = CARTESIAN_POINT ( 'NONE',  ( -3.000000000000000000, 0.000000000000000000, 12.69999999999999929 ) ) ;
#83 = CIRCLE ( 'NONE', #170, 12.69999999999999929 ) ;
#84 = ORIENTED_EDGE ( 'NONE', *, *, #66, .F. ) ;
#85 = FACE_OUTER_BOUND ( 'NONE', #306, .T. ) ;
#86 = CARTESIAN_POINT ( 'NONE',  ( -1.614212418857619014, 0.000000000000000000, 12.69999999999999929 ) ) ;
#87 = EDGE_LOOP ( 'NONE', ( #76, #10 ) ) ;
#88 = ADVANCED_FACE ( 'NONE', ( #168 ), #221, .F. ) ;
#89 = CALENDAR_DATE ( 2021, 5, 1 ) ;
#90 = MANIFOLD_SOLID_BREP ( 'Ðý×', #81 ) ;
#91 = DIRECTION ( 'NONE',  ( 0.000000000000000000, 0.000000000000000000, 1.000000000000000000 ) ) ;
#92 = CIRCLE ( 'NONE', #8, 12.69999999999999929 ) ;
#93 = DIRECTION ( 'NONE',  ( -1.000000000000000000, -0.000000000000000000, -0.000000000000000000 ) ) ;
#94 = EDGE_CURVE ( 'NONE', #133, #53, #83, .T. ) ;
#95 = DIRECTION ( 'NONE',  ( -0.000000000000000000, 0.000000000000000000, 1.000000000000000000 ) ) ;
#96 = CARTESIAN_POINT ( 'NONE',  ( -1.614212418857619014, 0.000000000000000000, 5.000000000000000888 ) ) ;
#97 = CIRCLE ( 'NONE', #285, 5.000000000000000000 ) ;
#98 = DIRECTION ( 'NONE',  ( -1.000000000000000000, 0.000000000000000000, -0.000000000000000000 ) ) ;
#99 = DIRECTION ( 'NONE',  ( 1.000000000000000000, 0.000000000000000000, 0.000000000000000000 ) ) ;
#100 = PERSON ( 'UNSPECIFIED', 'UNSPECIFIED', 'UNSPECIFIED', ('UNSPECIFIED'), ('UNSPECIFIED'), ('UNSPECIFIED') ) ;
#101 =( GEOMETRIC_REPRESENTATION_CONTEXT ( 3 ) GLOBAL_UNCERTAINTY_ASSIGNED_CONTEXT ( ( #165 ) ) GLOBAL_UNIT_ASSIGNED_CONTEXT ( ( #46, #73, #249 ) ) REPRESENTATION_CONTEXT ( 'NONE', 'WORKASPACE' ) );
#102 = EDGE_CURVE ( 'NONE', #109, #3, #195, .T. ) ;
#103 = ADVANCED_FACE ( 'NONE', ( #12 ), #291, .F. ) ;
#104 = APPROVAL_DATE_TIME ( #254, #34 ) ;
#105 = ORIENTED_EDGE ( 'NONE', *, *, #328, .T. ) ;
#106 = PERSON_AND_ORGANIZATION ( #100, #199 ) ;
#107 = VERTEX_POINT ( 'NONE', #196 ) ;
#108 = DIRECTION ( 'NONE',  ( 0.000000000000000000, 0.000000000000000000, 1.000000000000000000 ) ) ;
#109 = VERTEX_POINT ( 'NONE', #139 ) ;
#110 = EDGE_CURVE ( 'NONE', #109, #151, #39, .T. ) ;
#111 = DIRECTION ( 'NONE',  ( 0.000000000000000000, 0.000000000000000000, 1.000000000000000000 ) ) ;
#112 = CARTESIAN_POINT ( 'NONE',  ( -3.000000000000000000, 0.000000000000000000, 0.000000000000000000 ) ) ;
#113 = AXIS2_PLACEMENT_3D ( 'NONE', #226, #47, #299 ) ;
#114 = PERSON_AND_ORGANIZATION ( #100, #199 ) ;
#115 = CARTESIAN_POINT ( 'NONE',  ( -0.5000000000000002220, 0.000000000000000000, 0.000000000000000000 ) ) ;
#116 = CARTESIAN_POINT ( 'NONE',  ( -1.614212418857619014, 0.000000000000000000, 0.000000000000000000 ) ) ;
#117 = VECTOR ( 'NONE', #263, 1000.000000000000000 ) ;
#118 = FACE_BOUND ( 'NONE', #58, .T. ) ;
#119 = DIRECTION ( 'NONE',  ( -1.000000000000000000, -0.000000000000000000, -0.000000000000000000 ) ) ;
#120 = FACE_OUTER_BOUND ( 'NONE', #316, .T. ) ;
#121 = CYLINDRICAL_SURFACE ( 'NONE', #69, 5.000000000000000888 ) ;
#122 = DATE_AND_TIME ( #89, #60 ) ;
#123 = AXIS2_PLACEMENT_3D ( 'NONE', #143, #23, #273 ) ;
#124 = COORDINATED_UNIVERSAL_TIME_OFFSET ( 8, 0, .AHEAD. ) ;
#125 = VERTEX_POINT ( 'NONE', #18 ) ;
#126 = DATE_TIME_ROLE ( 'creation_date' ) ;
#127 = VERTEX_POINT ( 'NONE', #61 ) ;
#128 = DIRECTION ( 'NONE',  ( -1.000000000000000000, -0.000000000000000000, -0.000000000000000000 ) ) ;
#129 = ORIENTED_EDGE ( 'NONE', *, *, #298, .T. ) ;
#130 = EDGE_CURVE ( 'NONE', #127, #125, #43, .T. ) ;
#131 = AXIS2_PLACEMENT_3D ( 'NONE', #72, #98, #95 ) ;
#132 = ORIENTED_EDGE ( 'NONE', *, *, #110, .T. ) ;
#133 = VERTEX_POINT ( 'NONE', #42 ) ;
#134 = CARTESIAN_POINT ( 'NONE',  ( 3.000000000000000000, 0.000000000000000000, 0.000000000000000000 ) ) ;
#135 = AXIS2_PLACEMENT_3D ( 'NONE', #112, #7, #108 ) ;
#136 = PERSON_AND_ORGANIZATION ( #100, #199 ) ;
#137 = DIRECTION ( 'NONE',  ( -1.000000000000000000, -0.000000000000000000, -0.000000000000000000 ) ) ;
#138 = LOCAL_TIME ( 10, 32, 41.00000000000000000, #180 ) ;
#139 = CARTESIAN_POINT ( 'NONE',  ( 3.000000000000000000, 6.123233995736768255E-16, -5.000000000000001776 ) ) ;
#140 = DIRECTION ( 'NONE',  ( 0.000000000000000000, 0.000000000000000000, -1.000000000000000000 ) ) ;
#141 = DIRECTION ( 'NONE',  ( 1.000000000000000000, 0.000000000000000000, 0.000000000000000000 ) ) ;
#142 = AXIS2_PLACEMENT_3D ( 'NONE', #248, #70, #200 ) ;
#143 = CARTESIAN_POINT ( 'NONE',  ( -1.614212418857619014, 0.000000000000000000, 0.000000000000000000 ) ) ;
#144 = PRODUCT_RELATED_PRODUCT_CATEGORY ( 'detail', '', ( #230 ) ) ;
#145 = CIRCLE ( 'NONE', #135, 12.69999999999999929 ) ;
#146 = ADVANCED_FACE ( 'NONE', ( #16 ), #215, .F. ) ;
#147 = CARTESIAN_POINT ( 'NONE',  ( -3.000000000000000000, 5.000000000000000000, 0.000000000000000000 ) ) ;
#148 = APPROVAL_ROLE ( '' ) ;
#149 = EDGE_LOOP ( 'NONE', ( #253, #129, #31, #323 ) ) ;
#150 = CALENDAR_DATE ( 2021, 5, 1 ) ;
#151 = VERTEX_POINT ( 'NONE', #218 ) ;
#152 = APPROVAL_ROLE ( '' ) ;
#153 = DIRECTION ( 'NONE',  ( -1.000000000000000000, -0.000000000000000000, -0.000000000000000000 ) ) ;
#154 = ORIENTED_EDGE ( 'NONE', *, *, #184, .F. ) ;
#155 = DATE_AND_TIME ( #312, #17 ) ;
#156 = ORIENTED_EDGE ( 'NONE', *, *, #130, .T. ) ;
#157 = EDGE_LOOP ( 'NONE', ( #154, #210 ) ) ;
#158 = SECURITY_CLASSIFICATION ( '', '', #75 ) ;
#159 = CARTESIAN_POINT ( 'NONE',  ( -3.000000000000000000, 0.000000000000000000, 0.000000000000000000 ) ) ;
#160 = ADVANCED_FACE ( 'NONE', ( #85 ), #38, .T. ) ;
#161 = CARTESIAN_POINT ( 'NONE',  ( -1.614212418857619014, 0.000000000000000000, 5.000000000000000888 ) ) ;
#162 = DIRECTION ( 'NONE',  ( -1.000000000000000000, -0.000000000000000000, -0.000000000000000000 ) ) ;
#163 = AXIS2_PLACEMENT_3D ( 'NONE', #304, #268, #68 ) ;
#164 = ORIENTED_EDGE ( 'NONE', *, *, #102, .T. ) ;
#165 = UNCERTAINTY_MEASURE_WITH_UNIT (LENGTH_MEASURE( 1.000000000000000082E-05 ), #46, 'distance_accuracy_value', 'NONE');
#166 = DIRECTION ( 'NONE',  ( -1.000000000000000000, 0.000000000000000000, -0.000000000000000000 ) ) ;
#167 = AXIS2_PLACEMENT_3D ( 'NONE', #252, #303, #56 ) ;
#168 = FACE_OUTER_BOUND ( 'NONE', #320, .T. ) ;
#169 = AXIS2_PLACEMENT_3D ( 'NONE', #159, #78, #9 ) ;
#170 = AXIS2_PLACEMENT_3D ( 'NONE', #134, #15, #241 ) ;
#171 = PLANE ( 'NONE',  #131 ) ;
#172 = AXIS2_PLACEMENT_3D ( 'NONE', #270, #27, #174 ) ;
#173 = FACE_OUTER_BOUND ( 'NONE', #33, .T. ) ;
#174 = DIRECTION ( 'NONE',  ( 0.000000000000000000, 0.000000000000000000, 1.000000000000000000 ) ) ;
#175 = VECTOR ( 'NONE', #41, 1000.000000000000000 ) ;
#176 = CARTESIAN_POINT ( 'NONE',  ( -1.614212418857619014, 0.000000000000000000, 0.000000000000000000 ) ) ;
#177 = CIRCLE ( 'NONE', #113, 5.000000000000000000 ) ;
#178 = DIRECTION ( 'NONE',  ( 0.000000000000000000, 0.000000000000000000, -1.000000000000000000 ) ) ;
#179 = ORIENTED_EDGE ( 'NONE', *, *, #190, .T. ) ;
#180 = COORDINATED_UNIVERSAL_TIME_OFFSET ( 8, 0, .AHEAD. ) ;
#181 = CARTESIAN_POINT ( 'NONE',  ( 3.000000000000000000, 0.000000000000000000, 5.000000000000001776 ) ) ;
#182 = CC_DESIGN_APPROVAL ( #34, ( #302 ) ) ;
#183 = DATE_AND_TIME ( #265, #332 ) ;
#184 = EDGE_CURVE ( 'NONE', #193, #151, #97, .T. ) ;
#185 = LINE ( 'NONE', #280, #28 ) ;
#186 = ORIENTED_EDGE ( 'NONE', *, *, #328, .F. ) ;
#187 = EDGE_LOOP ( 'NONE', ( #258, #255, #51, #309 ) ) ;
#188 = VECTOR ( 'NONE', #137, 1000.000000000000000 ) ;
#189 = CYLINDRICAL_SURFACE ( 'NONE', #276, 12.69999999999999929 ) ;
#190 = EDGE_CURVE ( 'NONE', #133, #57, #322, .T. ) ;
#191 = CC_DESIGN_APPROVAL ( #22, ( #158 ) ) ;
#192 = DIRECTION ( 'NONE',  ( -1.000000000000000000, -0.000000000000000000, -0.000000000000000000 ) ) ;
#193 = VERTEX_POINT ( 'NONE', #288 ) ;
#194 = APPROVAL_STATUS ( 'not_yet_approved' ) ;
#195 = CIRCLE ( 'NONE', #222, 5.000000000000001776 ) ;
#196 = CARTESIAN_POINT ( 'NONE',  ( -3.000000000000000000, 6.123233995736766282E-16, -5.000000000000000000 ) ) ;
#197 = DIRECTION ( 'NONE',  ( 0.000000000000000000, 0.000000000000000000, 1.000000000000000000 ) ) ;
#198 = CARTESIAN_POINT ( 'NONE',  ( -1.614212418857619014, 6.123233995736767268E-16, -5.000000000000000888 ) ) ;
#199 = ORGANIZATION ( 'UNSPECIFIED', 'UNSPECIFIED', '' ) ;
#200 = DIRECTION ( 'NONE',  ( 0.000000000000000000, 0.000000000000000000, 1.000000000000000000 ) ) ;
#201 = FACE_OUTER_BOUND ( 'NONE', #87, .T. ) ;
#202 = CC_DESIGN_PERSON_AND_ORGANIZATION_ASSIGNMENT ( #278, #279, ( #158 ) ) ;
#203 = AXIS2_PLACEMENT_3D ( 'NONE', #115, #318, #67 ) ;
#204 = PERSON_AND_ORGANIZATION ( #100, #199 ) ;
#205 = ORIENTED_EDGE ( 'NONE', *, *, #190, .F. ) ;
#206 = COORDINATED_UNIVERSAL_TIME_OFFSET ( 8, 0, .AHEAD. ) ;
#207 = ORIENTED_EDGE ( 'NONE', *, *, #19, .F. ) ;
#208 = LOCAL_TIME ( 10, 32, 41.00000000000000000, #206 ) ;
#209 = APPROVAL_STATUS ( 'not_yet_approved' ) ;
#210 = ORIENTED_EDGE ( 'NONE', *, *, #64, .F. ) ;
#211 = ORIENTED_EDGE ( 'NONE', *, *, #298, .F. ) ;
#212 = EDGE_CURVE ( 'NONE', #53, #133, #92, .T. ) ;
#213 = CARTESIAN_POINT ( 'NONE',  ( -3.000000000000000000, 1.555301434917138433E-15, -12.69999999999999929 ) ) ;
#214 = APPLICATION_CONTEXT ( 'configuration controlled 3d designs of mechanical parts and assemblies' ) ;
#215 = CYLINDRICAL_SURFACE ( 'NONE', #25, 5.000000000000000888 ) ;
#216 = ORIENTED_EDGE ( 'NONE', *, *, #52, .T. ) ;
#217 = AXIS2_PLACEMENT_3D ( 'NONE', #21, #300, #271 ) ;
#218 = CARTESIAN_POINT ( 'NONE',  ( 0.5000000000000004441, 6.123233995736766282E-16, -5.000000000000000000 ) ) ;
#219 = COORDINATED_UNIVERSAL_TIME_OFFSET ( 8, 0, .AHEAD. ) ;
#220 = CC_DESIGN_PERSON_AND_ORGANIZATION_ASSIGNMENT ( #233, #4, ( #230 ) ) ;
#221 = PLANE ( 'NONE',  #283 ) ;
#222 = AXIS2_PLACEMENT_3D ( 'NONE', #325, #36, #91 ) ;
#223 = DIRECTION ( 'NONE',  ( 0.000000000000000000, 0.000000000000000000, 1.000000000000000000 ) ) ;
#224 = CIRCLE ( 'NONE', #172, 12.69999999999999929 ) ;
#225 = ADVANCED_FACE ( 'NONE', ( #65, #335 ), #329, .F. ) ;
#226 = CARTESIAN_POINT ( 'NONE',  ( -3.000000000000000000, 0.000000000000000000, 0.000000000000000000 ) ) ;
#227 = DIRECTION ( 'NONE',  ( 0.000000000000000000, 0.000000000000000000, 1.000000000000000000 ) ) ;
#228 = CALENDAR_DATE ( 2021, 5, 1 ) ;
#229 = APPROVAL_STATUS ( 'not_yet_approved' ) ;
#230 = PRODUCT ( 'QM-AAHWP-10-900-2100-M', 'QM-AAHWP-10-900-2100-M', '', ( #256 ) ) ;
#231 = PERSON_AND_ORGANIZATION_ROLE ( 'creator' ) ;
#232 = ORIENTED_EDGE ( 'NONE', *, *, #212, .T. ) ;
#233 = PERSON_AND_ORGANIZATION ( #100, #199 ) ;
#234 = ORIENTED_EDGE ( 'NONE', *, *, #20, .F. ) ;
#235 = EDGE_LOOP ( 'NONE', ( #207, #186 ) ) ;
#236 = ORIENTED_EDGE ( 'NONE', *, *, #94, .T. ) ;
#237 = ADVANCED_BREP_SHAPE_REPRESENTATION ( 'QM-AAHWP-10-900-2100-M', ( #90, #167 ), #101 ) ;
#238 = CC_DESIGN_DATE_AND_TIME_ASSIGNMENT ( #183, #126, ( #40 ) ) ;
#239 = DIRECTION ( 'NONE',  ( 0.000000000000000000, 0.000000000000000000, 1.000000000000000000 ) ) ;
#240 = APPLICATION_CONTEXT ( 'configuration controlled 3d designs of mechanical parts and assemblies' ) ;
#241 = DIRECTION ( 'NONE',  ( 0.000000000000000000, 0.000000000000000000, 1.000000000000000000 ) ) ;
#242 = PERSON_AND_ORGANIZATION ( #100, #199 ) ;
#243 = APPROVAL_PERSON_ORGANIZATION ( #242, #34, #79 ) ;
#244 = CARTESIAN_POINT ( 'NONE',  ( -0.5000000000000002220, 5.000000000000000000, 0.000000000000000000 ) ) ;
#245 = DIRECTION ( 'NONE',  ( -1.000000000000000000, -0.000000000000000000, -0.000000000000000000 ) ) ;
#246 = DIRECTION ( 'NONE',  ( -0.000000000000000000, 0.000000000000000000, 1.000000000000000000 ) ) ;
#247 = CARTESIAN_POINT ( 'NONE',  ( 0.5000000000000002220, 5.000000000000000000, 0.000000000000000000 ) ) ;
#248 = CARTESIAN_POINT ( 'NONE',  ( -1.614212418857619014, 0.000000000000000000, 0.000000000000000000 ) ) ;
#249 =( NAMED_UNIT ( * ) SI_UNIT ( $, .STERADIAN. ) SOLID_ANGLE_UNIT ( ) );
#250 = APPROVAL_PERSON_ORGANIZATION ( #114, #22, #152 ) ;
#251 = CC_DESIGN_PERSON_AND_ORGANIZATION_ASSIGNMENT ( #204, #231, ( #302 ) ) ;
#252 = CARTESIAN_POINT ( 'NONE',  ( 0.000000000000000000, 0.000000000000000000, 0.000000000000000000 ) ) ;
#253 = ORIENTED_EDGE ( 'NONE', *, *, #331, .F. ) ;
#254 = DATE_AND_TIME ( #228, #138 ) ;
#255 = ORIENTED_EDGE ( 'NONE', *, *, #48, .F. ) ;
#256 = MECHANICAL_CONTEXT ( 'NONE', #240, 'mechanical' ) ;
#257 = EDGE_LOOP ( 'NONE', ( #234, #232, #179, #264 ) ) ;
#258 = ORIENTED_EDGE ( 'NONE', *, *, #110, .F. ) ;
#259 = CC_DESIGN_PERSON_AND_ORGANIZATION_ASSIGNMENT ( #106, #305, ( #302 ) ) ;
#260 = CC_DESIGN_APPROVAL ( #313, ( #40 ) ) ;
#261 = ORIENTED_EDGE ( 'NONE', *, *, #20, .T. ) ;
#262 = ORIENTED_EDGE ( 'NONE', *, *, #330, .T. ) ;
#263 = DIRECTION ( 'NONE',  ( -1.000000000000000000, -0.000000000000000000, -0.000000000000000000 ) ) ;
#264 = ORIENTED_EDGE ( 'NONE', *, *, #52, .F. ) ;
#265 = CALENDAR_DATE ( 2021, 5, 1 ) ;
#266 = ADVANCED_FACE ( 'NONE', ( #201, #118 ), #171, .F. ) ;
#267 = DIRECTION ( 'NONE',  ( 0.000000000000000000, 0.000000000000000000, 1.000000000000000000 ) ) ;
#268 = DIRECTION ( 'NONE',  ( -1.000000000000000000, -0.000000000000000000, -0.000000000000000000 ) ) ;
#269 = CARTESIAN_POINT ( 'NONE',  ( -1.614212418857619014, 6.123233995736767268E-16, -5.000000000000000888 ) ) ;
#270 = CARTESIAN_POINT ( 'NONE',  ( -3.000000000000000000, 0.000000000000000000, 0.000000000000000000 ) ) ;
#271 = DIRECTION ( 'NONE',  ( 0.000000000000000000, 0.000000000000000000, -1.000000000000000000 ) ) ;
#272 = LINE ( 'NONE', #198, #310 ) ;
#273 = DIRECTION ( 'NONE',  ( 0.000000000000000000, 0.000000000000000000, 1.000000000000000000 ) ) ;
#274 = AXIS2_PLACEMENT_3D ( 'NONE', #147, #99, #178 ) ;
#275 = APPLICATION_PROTOCOL_DEFINITION ( 'international standard', 'config_control_design', 1994, #240 ) ;
#276 = AXIS2_PLACEMENT_3D ( 'NONE', #284, #35, #239 ) ;
#277 = PRODUCT_DEFINITION_SHAPE ( 'NONE', 'NONE',  #40 ) ;
#278 = PERSON_AND_ORGANIZATION ( #100, #199 ) ;
#279 = PERSON_AND_ORGANIZATION_ROLE ( 'classification_officer' ) ;
#280 = CARTESIAN_POINT ( 'NONE',  ( -1.614212418857619014, 1.555301434917138433E-15, -12.69999999999999929 ) ) ;
#281 = ORIENTED_EDGE ( 'NONE', *, *, #102, .F. ) ;
#282 = FACE_OUTER_BOUND ( 'NONE', #257, .T. ) ;
#283 = AXIS2_PLACEMENT_3D ( 'NONE', #244, #141, #140 ) ;
#284 = CARTESIAN_POINT ( 'NONE',  ( -1.614212418857619014, 0.000000000000000000, 0.000000000000000000 ) ) ;
#285 = AXIS2_PLACEMENT_3D ( 'NONE', #324, #192, #286 ) ;
#286 = DIRECTION ( 'NONE',  ( 0.000000000000000000, 0.000000000000000000, 1.000000000000000000 ) ) ;
#287 = VERTEX_POINT ( 'NONE', #296 ) ;
#288 = CARTESIAN_POINT ( 'NONE',  ( 0.5000000000000004441, 0.000000000000000000, 5.000000000000000000 ) ) ;
#289 = ORIENTED_EDGE ( 'NONE', *, *, #331, .T. ) ;
#290 = SHAPE_DEFINITION_REPRESENTATION ( #277, #237 ) ;
#291 = PLANE ( 'NONE',  #301 ) ;
#292 = VECTOR ( 'NONE', #71, 1000.000000000000000 ) ;
#293 = LINE ( 'NONE', #161, #175 ) ;
#294 = EDGE_CURVE ( 'NONE', #3, #193, #333, .T. ) ;
#295 = DIRECTION ( 'NONE',  ( -1.000000000000000000, -0.000000000000000000, -0.000000000000000000 ) ) ;
#296 = CARTESIAN_POINT ( 'NONE',  ( -3.000000000000000000, 0.000000000000000000, 5.000000000000000000 ) ) ;
#297 = ADVANCED_FACE ( 'NONE', ( #26 ), #334, .F. ) ;
#298 = EDGE_CURVE ( 'NONE', #125, #127, #326, .T. ) ;
#299 = DIRECTION ( 'NONE',  ( 0.000000000000000000, 0.000000000000000000, 1.000000000000000000 ) ) ;
#300 = DIRECTION ( 'NONE',  ( 1.000000000000000000, 0.000000000000000000, 0.000000000000000000 ) ) ;
#301 = AXIS2_PLACEMENT_3D ( 'NONE', #247, #166, #246 ) ;
#302 = PRODUCT_DEFINITION_FORMATION_WITH_SPECIFIED_SOURCE ( 'ANY', '', #230, .NOT_KNOWN. ) ;
#303 = DIRECTION ( 'NONE',  ( 0.000000000000000000, 0.000000000000000000, 1.000000000000000000 ) ) ;
#304 = CARTESIAN_POINT ( 'NONE',  ( 0.5000000000000004441, 0.000000000000000000, 0.000000000000000000 ) ) ;
#305 = PERSON_AND_ORGANIZATION_ROLE ( 'design_supplier' ) ;
#306 = EDGE_LOOP ( 'NONE', ( #236, #261, #37, #205 ) ) ;
#307 = CIRCLE ( 'NONE', #163, 5.000000000000000000 ) ;
#308 = APPROVAL_DATE_TIME ( #122, #22 ) ;
#309 = ORIENTED_EDGE ( 'NONE', *, *, #184, .T. ) ;
#310 = VECTOR ( 'NONE', #295, 1000.000000000000000 ) ;
#311 = ADVANCED_FACE ( 'NONE', ( #173 ), #45, .F. ) ;
#312 = CALENDAR_DATE ( 2021, 5, 1 ) ;
#313 = APPROVAL ( #209, 'UNSPECIFIED' ) ;
#314 = EDGE_LOOP ( 'NONE', ( #262, #216 ) ) ;
#315 = ORIENTED_EDGE ( 'NONE', *, *, #130, .F. ) ;
#316 = EDGE_LOOP ( 'NONE', ( #281, #132, #74, #13 ) ) ;
#317 = CIRCLE ( 'NONE', #169, 5.000000000000000000 ) ;
#318 = DIRECTION ( 'NONE',  ( 1.000000000000000000, 0.000000000000000000, 0.000000000000000000 ) ) ;
#319 = ADVANCED_FACE ( 'NONE', ( #120 ), #121, .F. ) ;
#320 = EDGE_LOOP ( 'NONE', ( #315, #211 ) ) ;
#321 = CC_DESIGN_SECURITY_CLASSIFICATION ( #158, ( #302 ) ) ;
#322 = LINE ( 'NONE', #86, #117 ) ;
#323 = ORIENTED_EDGE ( 'NONE', *, *, #19, .T. ) ;
#324 = CARTESIAN_POINT ( 'NONE',  ( 0.5000000000000004441, 0.000000000000000000, 0.000000000000000000 ) ) ;
#325 = CARTESIAN_POINT ( 'NONE',  ( 3.000000000000000000, 0.000000000000000000, 0.000000000000000000 ) ) ;
#326 = CIRCLE ( 'NONE', #217, 5.000000000000000888 ) ;
#327 = CARTESIAN_POINT ( 'NONE',  ( -1.614212418857619014, 0.000000000000000000, 0.000000000000000000 ) ) ;
#328 = EDGE_CURVE ( 'NONE', #107, #287, #177, .T. ) ;
#329 = PLANE ( 'NONE',  #274 ) ;
#330 = EDGE_CURVE ( 'NONE', #57, #5, #224, .T. ) ;
#331 = EDGE_CURVE ( 'NONE', #125, #107, #272, .T. ) ;
#332 = LOCAL_TIME ( 10, 32, 41.00000000000000000, #124 ) ;
#333 = LINE ( 'NONE', #96, #292 ) ;
#334 = CYLINDRICAL_SURFACE ( 'NONE', #142, 5.000000000000000888 ) ;
#335 = FACE_OUTER_BOUND ( 'NONE', #314, .T. ) ;
ENDSEC;
END-ISO-10303-21;
